0
SECTION
2
HEADER
9
$INSUNITS
70
4
9
$ACADVER
1
AC1014
9
$HANDSEED
5
FFFF
0
ENDSEC
0
SECTION
2
TABLES
0
TABLE
2
VPORT
5
8
100
AcDbSymbolTable
0
ENDTAB
0
TABLE
2
LTYPE
5
5
100
AcDbSymbolTable
0
LTYPE
5
14
100
AcDbSymbolTableRecord
100
AcDbLinetypeTableRecord
2
BYBLOCK
70
0
0
LTYPE
5
15
100
AcDbSymbolTableRecord
100
AcDbLinetypeTableRecord
2
BYLAYER
70
0
0
ENDTAB
0
TABLE
2
LAYER
5
2
100
AcDbSymbolTable
70
2
0
LAYER
5
50
100
AcDbSymbolTableRecord
100
AcDbLayerTableRecord
2
0
70
0
6
CONTINUOUS
0
ENDTAB
0
TABLE
2
STYLE
5
3
100
AcDbSymbolTable
70
1
0
STYLE
5
11
100
AcDbSymbolTableRecord
100
AcDbTextStyleTableRecord
2
STANDARD
70
0
0
ENDTAB
0
TABLE
2
VIEW
5
6
100
AcDbSymbolTable
70
0
0
ENDTAB
0
TABLE
2
UCS
5
7
100
AcDbSymbolTable
70
0
0
ENDTAB
0
TABLE
2
APPID
5
9
100
AcDbSymbolTable
70
2
0
APPID
5
12
100
AcDbSymbolTableRecord
100
AcDbRegAppTableRecord
2
ACAD
70
0
0
ENDTAB
0
TABLE
2
DIMSTYLE
5
A
100
AcDbSymbolTable
70
1
0
ENDTAB
0
TABLE
2
BLOCK_RECORD
5
1
100
AcDbSymbolTable
70
1
0
BLOCK_RECORD
5
1F
100
AcDbSymbolTableRecord
100
AcDbBlockTableRecord
2
*MODEL_SPACE
0
BLOCK_RECORD
5
1B
100
AcDbSymbolTableRecord
100
AcDbBlockTableRecord
2
*PAPER_SPACE
0
ENDTAB
0
ENDSEC
0
SECTION
2
BLOCKS
0
BLOCK
5
20
100
AcDbEntity
100
AcDbBlockBegin
2
*MODEL_SPACE
0
ENDBLK
5
21
100
AcDbEntity
100
AcDbBlockEnd
0
BLOCK
5
1C
100
AcDbEntity
100
AcDbBlockBegin
2
*PAPER_SPACE
0
ENDBLK
5
1D
100
AcDbEntity
100
AcDbBlockEnd
0
ENDSEC
0
SECTION
2
ENTITIES
0
LWPOLYLINE
5
100
100
AcDbEntity
8
0
100
AcDbPolyline
90
8
70
1
43
0.0
10
-8.6603864207265158
20
-27.926177570279044
10
21.339613579273482
20
-27.926177570279044
10
21.339613579273482
20
-30.568177570279026
10
17.481613579273478
20
-30.568177570279026
10
17.481613579273478
20
-45.426177570279037
10
21.339613579273482
20
-45.426177570279037
10
21.339613579273482
20
-97.926177570279052
10
-48.660386825740943
20
-97.926177570279009
0
LINE
5
101
100
AcDbEntity
8
0
100
AcDbLine
10
21.339613579273482
20
-27.926177570279044
30
0
11
-8.6603864207265175
21
-27.926177570279044
31
0
0
LINE
5
102
100
AcDbEntity
8
0
100
AcDbLine
10
13.768613579273483
20
-87.926177570279037
30
0
11
12.339613579273482
21
-87.926177570279037
31
0
0
LINE
5
103
100
AcDbEntity
8
0
100
AcDbLine
10
13.768613579273483
20
-67.926177570279066
30
0
11
12.339613579273482
21
-67.926177570279066
31
0
0
CIRCLE
5
104
100
AcDbEntity
8
0
100
AcDbCircle
10
12.339613579273482
20
-87.926177570279037
30
0
40
1.4290000000000003
0
CIRCLE
5
105
100
AcDbEntity
8
0
100
AcDbCircle
10
12.339613579273482
20
-67.926177570279066
30
0
40
1.4290000000000003
0
LINE
5
106
100
AcDbEntity
8
0
100
AcDbLine
10
21.339613579273482
20
-30.568177570279026
30
0
11
21.339613579273482
21
-27.926177570279044
31
0
0
LWPOLYLINE
5
107
100
AcDbEntity
8
0
100
AcDbPolyline
90
20
70
1
43
0.0
10
136.37934129360804
20
-8.3112465612502202
10
136.37934129360804
20
9.6887534387497904
10
124.92270943546927
20
9.6887534387497904
10
124.92283316059886
20
13.836325501397052
10
104.78083393132428
20
13.830753436906855
10
104.78071037241348
20
9.6887534387497833
10
81.909350942296854
20
9.6887534387497833
10
81.912537858312149
20
13.830650321097869
10
61.770537858569867
20
13.830752212659146
10
61.767350864155773
20
9.6887534387497833
10
50.356088293608025
20
9.6887534387497869
10
50.356088293608025
20
-8.3112465612502167
10
61.767350864155787
20
-8.3112465612502149
10
61.770537858569881
20
-12.453245335159572
10
81.912537858312149
20
-12.453143443598307
10
81.909350942296854
20
-8.3112465612502202
10
104.78071037241348
20
-8.311246561250222
10
104.7808339313243
20
-12.453246559407285
10
124.92283316059886
20
-12.458818623897487
10
124.92270943546927
20
-8.3112465612502202
0
LINE
5
108
100
AcDbEntity
8
0
100
AcDbLine
10
93.367599457418748
20
9.6887534387497869
30
0
11
81.909350942296854
21
9.6887534387497833
31
0
0
LINE
5
109
100
AcDbEntity
8
0
100
AcDbLine
10
93.367599457418748
20
9.6887534387497869
30
0
11
104.78071037241348
21
9.6887534387497833
31
0
0
LWPOLYLINE
5
110
100
AcDbEntity
8
0
100
AcDbPolyline
90
4
70
1
43
0.0
10
-40.332092937706172
20
-89.668286378219406
10
-24.213660308536401
20
-78.155120281140995
10
-22.000305275333947
20
-81.253817345553216
10
-38.118737904503682
20
-92.766983442631684
0
LWPOLYLINE
5
111
100
AcDbEntity
8
0
100
AcDbPolyline
90
4
70
1
43
0.0
10
12.99969492717333
20
-56.253817345553173
10
-3.118737701996408
20
-67.766983442631613
10
-5.3320927351989011
20
-64.668286378219349
10
10.78633989397084
20
-53.15512028114091
0
LWPOLYLINE
5
112
100
AcDbEntity
8
0
100
AcDbPolyline
90
12
70
1
43
0.0
10
-9
20
9.9999999999999982
10
9
20
9.9999999999999982
10
9.0000000000000036
20
7.6000000000000023
10
13.142000000000005
20
7.6000000000000023
10
13.142000000000005
20
-7.541999999999998
10
9.0000000000000036
20
-7.541999999999998
10
9
20
-9.9999999999999982
10
-9
20
-9.9999999999999982
10
-9
20
-7.5419999999999998
10
-13.141999999999999
20
-7.5419999999999998
10
-13.141999999999999
20
7.5999999999999996
10
-9
20
7.5999999999999996
0
ENDSEC
0
SECTION
2
OBJECTS
0
DICTIONARY
5
C
100
AcDbDictionary
3
ACAD_GROUP
350
D
3
ACAD_MLINESTYLE
350
17
0
DICTIONARY
5
D
100
AcDbDictionary
0
DICTIONARY
5
1A
330
C
100
AcDbDictionary
0
DICTIONARY
5
17
100
AcDbDictionary
0
ENDSEC
0
EOF
